Information ausblenden

ist das tab richtig ?

Dieses Thema im Forum "Gitarre & Bass" wurde erstellt von mik0r0r, 15.02.06.

Status des Themas:
Beachte, dass dieses Thema älter als ein Jahr ist! Möglicherweise ist es sinnvoller, einen neuen Thread zu erstellen.
  1. mik0r0r

    mik0r0r Themenersteller

    Registriert seit:
    21.07.04
    Punkte:
    2.579
    2579
    habe mor vorhin ma die audiodemos von amplitube 2 angehört und da is ein riff dabei, das lässt mich seitdemn nicht mehr los (läuft seit 2 stunden bei mir repeat ...)

    ftp://


    ich hab sean versucht das nachzuspielen bzw. zu tabben ... bin auch schon relativ weit gekommen, jedoch wie das original klingt das noch lange nicht



    hier mal mein bisheriges tab:

    Code:
    e:---------8------------------
    h:-------------------12-------
    g:----12----------------12--12
    g:--8----8---8--7---------10--
    d:----------------8-----------
    a:----------------------------
    e:----------------------------
    

    scheint zu stimmen ... aber leider klingts nich so !
    was meint ihr ?
     
    mik0r0r, 15.02.06
    #1
  2. ruecking

    ruecking

    Registriert seit:
    15.05.05
    Punkte:
    341
    341
    ne scheint nicht zu stimmen.

    mit dem tabben bin ich außer übung, alles so lange her...
    aber ich habs kurz mal probiert:

    e---------------------8--------------------7-----------------
    h-------------------------------------------------------------
    g-----------12----------------------------------9-------------
    d------10------10--------10--9-------------------10-------
    a--10------------------------------10-------------------------
    e---------------------------------------------------------------


    bei den letzten beiden noten bin ich mir sehr unsicher.
    sowas ist immer eine gute übung, also weitermachen!
     
    ruecking, 15.02.06
    #2
  3. FIXXXER

    FIXXXER

    Registriert seit:
    25.11.05
    Punkte:
    11.906
    11906
    ähm was hast du denn für eine Gitarre? :eek:

    e:---------8------------------
    h:-------------------12-------
    g:----12----------------12--12
    g:--8----8---8--7---------10--
    d:----------------8-----------
    a:----------------------------
    e:----------------------------

    2mal G Saite??

    mfg
    Torn
     
    FIXXXER, 15.02.06
    #3
  4. ruecking

    ruecking

    Registriert seit:
    15.05.05
    Punkte:
    341
    341
    *lach*, hab ich mich auch erst gefragt...
    aber das ist wohl ein tab...eh..tippfehler!
     
    ruecking, 15.02.06
    #4
  5. mik0r0r

    mik0r0r Themenersteller

    Registriert seit:
    21.07.04
    Punkte:
    2.579
    2579
    ups sorry ...


    die oberste seite ist eh und dann runterdenken .. :)

    hab mich vertan weil ich dachte, dass alles auf den oberen 4 saiten gespielt wird ... warns wohl doch die oberen 5 :)
     
    mik0r0r, 15.02.06
    #5
  6. Peppersmusic

    Peppersmusic

    Registriert seit:
    07.06.04
    Punkte:
    629
    629
    ok aber auch ohne Doppel-G bekomm ich den Link nicht auf bzw. gespeichert.....
     
    Peppersmusic, 15.02.06
    #6
  7. mik0r0r

    mik0r0r Themenersteller

    Registriert seit:
    21.07.04
    Punkte:
    2.579
    2579
    omg

    war ich vorhin besoffen ? :) ichs eh grad, dass überall wo ich 8 stehen hab ne 10 hinmuss ... sry :(

    @pepper: also bei mir gehts ... einfach draufklicken

    @rueckeling: bist du sicher ? scheint mir nen bissl schwer zu greifen deine version ... vorallem die 8 und 7 auf der hohen esaite ...
     
    mik0r0r, 15.02.06
    #7
  8. Peppersmusic

    Peppersmusic

    Registriert seit:
    07.06.04
    Punkte:
    629
    629
    nö, geht nicht!
     
    Peppersmusic, 15.02.06
    #8
  9. ruecking

    ruecking

    Registriert seit:
    15.05.05
    Punkte:
    341
    341
    jo schon schwer zu greifen, aber bei den tönen auf der hohen e-saite bin ich mir sehr sicher. probiers halt mal aus, es klingt für mich auf jeden fall näher dran als deine version.
    so long.
     
    ruecking, 15.02.06
    #9
  10. bemoll

    bemoll

    Registriert seit:
    20.07.05
    Punkte:
    707
    707
    Also, ick will ja nischt sagen, aber ick hör da 'n "d" am Anfang >> deshalb müßte da 'ne 10 stehen auf der e-Saite. Leider hab ich nur Lautsprecher am Bildschirm (igitt) . Das "h", also die 7 auf der e-Saite ginge, von dem was ich höre auch auf der "h"-Saite im XII. Bd. Ist dann auch leichter zu greifen in der Abfolge.
    BTW, wie geht das mit dem Tab?
    Gruß
    bemoll
     
    bemoll, 15.02.06
    #10
  11. Draiden

    Draiden

    Registriert seit:
    06.12.05
    Punkte:
    3.044
    3044
    e-------------------------
    b-------------------------
    g-------------17-----12----
    d--------------------------
    a------15--------15-----14~-
    d-14------14---------------

    erster teil, klingt quasi wies orig
    VORSICHT: drop-d ^^
    und: für mich bleibt ein b ein b, egal wie doof deutsche mönche sind ;)
     
    Draiden, 15.02.06
    #11
  12. Draiden

    Draiden

    Registriert seit:
    06.12.05
    Punkte:
    3.044
    3044
    e--------------------------------------------------------
    b-------------------------------------------------------11~
    g----------19--------16~----------16-17----12~-----------
    d-------------------------------12------------------------
    a----15-------15--10--------14----------10--------10------
    d-10----10---------------10--------------------10----10---

    ich habe fertig...muss bloß noch die oktaven ausrichen, is noch bissl schwerfällig zu spieln so
    wers als .txt will soll sich melden ^^
     
    Draiden, 15.02.06
    #12
  13. bemoll

    bemoll

    Registriert seit:
    20.07.05
    Punkte:
    707
    707
    hier spricht der Mönch, der nun mal das b als h ansieht (tja, das Mittelalter :) )
    das Stückchen endet:
    e--------------10------
    h!-------------------
    g--------9---------
    d-----10--10--- (wie ein langsames Arpeggio con molto vibrato)

    die "Pickinstruktur" in etwa:

    e------------------10----------------- ----7---------------------------10
    h!-------------------------------------------------------------------------
    g-----------9----------------------0----------0-----------------9
    d-----9-10--------------- 10--9-------------------------9-10
    a-------------10-------10-----------10---------10---------------10 etc.......
    e-------------------------------------------------------------------------

    Anmerkung: Fingerstyle; der Daumen wandert zwischen a und d Saite, die g-saite (leer) wird sehr leise vom Gitarristen gespielt, ebenso das gegriffene e auf der g-Saite (IX..Bd.)

    HTH
    bemoll
     
    bemoll, 15.02.06
    #13
  14. Draiden

    Draiden

    Registriert seit:
    06.12.05
    Punkte:
    3.044
    3044
    bin immernoch für meine version...sowohl tab als auch b :D

    mfg drai
     
    Draiden, 16.02.06
    #14
Status des Themas:
Beachte, dass dieses Thema älter als ein Jahr ist! Möglicherweise ist es sinnvoller, einen neuen Thread zu erstellen.